Guitar Tabs | Ruin My Life

Ruin My Life

Tabbed by Hoover
I've watched Pat play this song tons of times,
and I can't for the life of me figure out how
he's getting the notes and chords he is based
on his hand positions, but none the less, this
sounds the same.

Intro verse:  Listen to the song to figure out
where the words go in this riff and the struming
patern for the A.  Each number is an eigth note
-------------------------------------------------
-------------------------------------------------
-------------------------------------------------
0-0--0-0--0-0--0-0-------------------------------
--------------------4-4--4-4--4-4--4-4--2-2--2-2-
-------------------------------------------------

-------------------------------------------------
-------------------------------------------------
-------------------------------------------------
-------------------------------------------------
2-2--2-2--0-0--0-0--0-0--0-0---------------------
------------------------------3-3--3-3--3-3--3-3-
                     A
-------------------------|X2
---------------------2---|
---------------------2---|
---------------------2---|
-------------------------|
-2-2--2-2--2-2--2-2--0---|
Chorus:
      D     A                 D     A
so to-night   I wanna ruin my life   I wanna 
             D    A                  G      A  
throw it all away   In a spectacular way ah ah. 
   D     A                 D    A
Tonight,   I wanna ruin my life    I wanna do 
        G          A       D
somthing dumb, and I don't care 
Verse2: same patern as verse 1
Chorus2: same patern as Chorus 1
Bridge: G            G             A     A    A
--------2------------2-------------0-----0----0--
--------0------------0-------------2-----2----2--
--------0------------0-------------2-----2----2--
--------0------------0-------------2-----2----2--
--------2------------2-------------0-----0----0--
2--3----3----2----3--3----2----3-----------------
I dont care what happens when you close that door
        G            G           A     A    A
--------2------------2-----------0-----0----0----
--------0------------0-----------2-----2----2----
--------0------------0-----------2-----2----2----
--------0------------0-----------2-----2----2----
--------2------------2-----------0-----0----0----
2--3----3----2----3--3----2--3-------------------
I don't care what happens to me any more any more

Use the Verse riff over the "La La"s
Verse3: Same pattern as Verse1
Chorus3 and Outro:
      D     A                 D    A
so to-night   I wanna ruin my life   I wanna 
             D    A                  G      A  
throw it all away   In a spectacular way ah ah. 
     D   A                 D     A
Tonight,   I wanna ruin my life    I wanna ruin 
    D    A                  D    A
my life    I wanna ruin my life    I wanna ruin 
    D    A                  D    A
my life    I wanna ruin my life    I wanna ruin 
    D    A                  D    A
my life    I wanna ruin my life    And If I'm 
       G   A                    D
going down   Your coming with me
Copyright © 1995-2017 Pat McCurdy • All rights reserved