Guitar Tabs | Rich Young Pretty and Tan

Rich Young Pretty and Tan

Tabbed by Mauricio
Intro
E
-------------------------|X2
-------------------------|
-------------------------|
-------------------------|
-----2-4--------2-4------|
-0-4--------0-4----------|


E
----------------------------------
----------------------------------
----------------------------------
----------------------------------
-------2-4----------------2-4----- 
-0--4----------------0-4----------
Well, all little girls want a dreamboat boy

A	F#m
-----------2----------------------
---2-------2----------------------
---2-------2----------------------
---2-------4----------------------
0----------4----------------------
---------2------------------------
Rich young pretty & tan

E
----------------------------------
----------------------------------
----------------------------------
----------------------------------
-------2-4----------------2-4----- 
-0--4----------------0-4----------
And all the little boys want a sweet little thing

A	    F#m
---0-----------2----------------------
---2-----------2----------------------
---2-----------2----------------------
---2-----------4----------------------
0--------------4----------------------
-------------2------------------------
Rich young pretty & tan

A			F#m	
Don't you know it's a proven fact
A			F#m
We all want sex in a Caddilac
A			F#m
Once in front and twice in back

E
We want it to be like on TV
 
A		    E 
		   ----------------------
		   ----------------------
		   ----------------------
		   ---------------------
		   -------2-4--------2-4-
		   -0--4--------0-4-----
Rich young pretty & tan


Second verse (same pattern)
Well, all of my friends can't wait to be
Rich young pretty & tan
Personally, I would hate to be
Rich young pretty & tan

You spend a fortune on your clothes
You dress up right so that no one knows
About that itch that comes and goes
Woe is he that wants to be

Rich young pretty & tan


------------------------
------------------------
------------------------
------------------------
-------2-4------2-4----- 
-0--4-------0-4---------
Rich young pretty tan  

----------------------------------
----------------------------------
----------------------------------
----------------------------------
-2-3-2-3-2-3-2------------------- 
---------------3-0---------------


And then itís pretty much the same thing
Copyright © 1995-2017 Pat McCurdy • All rights reserved