Guitar Tabs | You And I Are Just About To Fall In Love

You And I Are Just About To Fall In Love

Tabbed by Mauricio
A              D                     E
You and I are just about to fall in love
 D                     E
Just about to fall in love
           A
Can you feel it?

A              D                     E
You and I are just about to fall in love
 D                     E
Just about to fall in love
          A
Do you believe it?

   D
And if it's not the alcohol talking
A
If it's not our hormones screaming
Bm
If it's not just an animal urge
    A
If neither of us is dreaming
         E       A
We will fall in love

E -5------------------
B --2--5--------------
G --------------------
D --------------------
A --------------------
E --------------------

D                            E
We're just about to fall in love
   D                  E
A close approximation of
 A
Love
E                               D
I'm just about to go and get a tattoo
              A
Of your name above my heart
E                                   D
I'm just about to tell myself that you're
                          A
The one that I've been dreaming of
                 E
Right from the start


E -5---0----2-2-2-2-0-----2-2-2-2-0--------------
B --2-----------------3-0-----------3-0-----3-3-2
G -------2------------------------------2-2------
D -----------------------------------------------
A -----------------------------------------------
E -----------------------------------------------
Chorus

D
And if it's not our shining clothing
A
Our scintillating conversation
Bm
If it's not just everyday lust
A
If it's not the medication

D
If it's not the heavy breathing
     A
The moisture in forbidden places
Bm
If it's not the fear that maybe next year
 A
We'll have moved along to other places
         E       A
We will fall in love

Chorus

D                            E       A
You and I are just about to fall in love   (3X)
Copyright © 1995-2017 Pat McCurdy • All rights reserved