Guitar Tabs | Be Together Soon

Be Together Soon

Tabbed by Joel Styles
Intro
-----

E|---|---|---
B|-3-|-3-|-3-
G|-0-|-0-|-0-
D|-0-|-2-|-2-
A|-2-|-3-|-0-
E|-3-|-0-|-0-

Verses
------

E|---|-2-|---|---|-0-|-2-
B|-3-|-3-|-3-|---|-2-|-3-
G|-0-|-2-|-0-|-0-|-2-|-2-
D|-0-|-0-|-0-|-2-|-2-|-0-
A|-2-|---|-2-|-2-|-0-|---
E|-3-|---|-3-|-0-|---|---


...circle round the bed, wearing wicked smiles...
-------------------------------------------------

E|-----------------------
B|-----7-----6-----5-----
G|-----7-----6-----5---4-
D|---7-----6-----5-----4-
A|-5-----4-----3-----2---
E|-----------------------


...with our clothes in ever corner of the room...
-------------------------------------------------

E|-------------------
B|-------------------
G|-------------------
D|-------------------
A|-2-2-2-2-2-0-------
E|-------------3-2-0-

Chorus
------

E|---|---|---|---
B|-3-|-3-|-3-|-3-
G|-0-|-0-|-0-|-2-
D|-0-|-2-|-2-|-0-
A|-2-|-2-|-3-|-0-
E|-3-|-0-|-0-|---
Copyright © 1995-2017 Pat McCurdy • All rights reserved